Thread: Kapone's Tabs

Page 4 of 52 FirstFirst 1234567814 ... LastLast
Results 46 to 60 of 770
  1. #46  
    Coldplayer Sam's Avatar
    Join Date
    Jun 2005
    Location
    Gold Coast
    Posts
    3,231
    Chat posts
    0
    yeah, but the whole song would be nice
    Spoiler


    last.fm
    Reply With Quote  
     

  2. Sponsored Links
  3. #47  
    Coldplayer Kapone's Avatar
    Join Date
    Mar 2005
    Posts
    1,709
    Chat posts
    0
    DON'T PANIC (ACOUSTIC)

    Intro
    0---0
    1---0
    2---0
    3---3
    3---3
    1---1

    Verse
    0---0---0---0
    1---1---1---0
    2---0---2---0
    2---2---3---3
    0---3---3---3
    x---3---1---1

    Chorus
    0-----0----0
    10----5----3
    10----5----4
    12----7----5
    12----7----5
    10----5----3

    Then do the first two chords above again but instead of the third chord, go down to:
    0
    1
    2
    3
    3
    1

    Those are all the acoustic parts

    DON'T PANIC (ELECTRIC)

    In the album version, there's an electric strumming along with the acoustic. Use those acoustic chords for that. Live, slowly sweep these chords below once as they come in. You'll hear what I mean
    5---0---0
    5---1---1
    5---0---2
    7---2---3
    x---x---x
    x---x---x

    Then the chorus is
    10--10--10--10--10--10--10--10--10--10--10--10--10--10--10--10-----
    10--10--10--10--10--10--10--10--12--12--12--12--13--13--13--13-----
    --------------------------------------------------------------------------------
    --------------------------------------------------------------------------------
    --------------------------------------------------------------------------------
    --------------------------------------------------------------------------------

    5--5--5--5--5--5--5-----------15----15------------15---------------
    5--5--5--5--5--5--5-----------13----12-----12------------12-------
    ------------------------------------------------------------------------
    ------------------------------------------------------------------------
    ------------------------------------------------------------------------
    ------------------------------------------------------------------------

    Then on the second time, its:
    --------5--------------------5-----------------------------------------
    -5h6------5h6p5----5h6--------5h6p5------------------------------
    ------------------------------------------------------------------------
    ------------------------------------------------------------------------
    ------------------------------------------------------------------------
    ------------------------------------------------------------------------

    Then, the last solo is:
    -12-------12-------12-------12-------12-------12--------12---------
    ------13-------13-------13-------13-------13--------13-------13----
    ------------------------------------------------------------------------
    ------------------------------------------------------------------------
    ------------------------------------------------------------------------
    ------------------------------------------------------------------------

    and then then hammering bit on the 5th fret
    www.lemonculture.tk

    I\'m a member of the \'Ask someone esle to search group\'
    Reply With Quote  
     

  4. #48  
    Coldplayer Sam's Avatar
    Join Date
    Jun 2005
    Location
    Gold Coast
    Posts
    3,231
    Chat posts
    0
    thanks, greatly appreciated.
    Spoiler


    last.fm
    Reply With Quote  
     

  5. #49  
    Coldplayer
    Join Date
    Dec 2003
    Location
    new york city
    Posts
    179
    Chat posts
    0
    trouble acoustic? i've heard a couple of versions, but the one i'm trying to find is the one that was filmed for vh1 probably 5 years ago. there's a nice video of it.
    Reply With Quote  
     

  6. #50  
    Coldplayer crackerjack's Avatar
    Join Date
    Mar 2005
    Location
    swallowed in the sea
    Posts
    760
    Chat posts
    0
    kapone your tabs for yellow acoustic...amazing
    Reply With Quote  
     

  7. #51  
    Coldplayer Kapone's Avatar
    Join Date
    Mar 2005
    Posts
    1,709
    Chat posts
    0
    Quote:
    Originally Posted by glking
    trouble acoustic? i've heard a couple of versions, but the one i'm trying to find is the one that was filmed for vh1 probably 5 years ago. there's a nice video of it.


    yeah, that exact performance is in this thread somewhere
    www.lemonculture.tk

    I\'m a member of the \'Ask someone esle to search group\'
    Reply With Quote  
     

  8. #52  
    Coldplayer
    Join Date
    Dec 2003
    Location
    new york city
    Posts
    179
    Chat posts
    0
    oh sorry, how about til kingdom come?
    Reply With Quote  
     

  9. #53  
    Coldplayer Kapone's Avatar
    Join Date
    Mar 2005
    Posts
    1,709
    Chat posts
    0
    Yeah, Ok, I'll do that tommorow
    www.lemonculture.tk

    I\'m a member of the \'Ask someone esle to search group\'
    Reply With Quote  
     

  10. #54  
    Coldplayer
    Join Date
    Jun 2005
    Location
    Pskov
    Posts
    16
    Chat posts
    0
    hi
    what about See You Soon?
    you've posted the verse and what about the rest?

    anyway what do you think about that:

    -x-0-9-0-0-9-
    -x-0-4-0-0-4-
    -x-0-7-0-0-7-
    -x-7-0-0-7-0-

    and different chords for different lines:

    -x-2-0-0-2-0- (studio) or something like -x-4-0-0-2-0- or -3-4-0-0-2-0- (DVD)
    -x-0-0-0-8-0- (studio) or -x-9-0-0-8-0- (DVD)
    -x-0-0-0-7-0- (studio) or -x-9-0-0-7-0- (DVD)

    and coda:

    -x-9-0-0-8-0-
    -x-7-0-0-7-0- repeated four times
    -x-2-0-0-2-0-


    hmmm
    Reply With Quote  
     

  11. #55  
    Coldplayer
    Join Date
    Jan 2005
    Posts
    993
    Chat posts
    0
    uhh do you know the tab to 1'36? thanks
    Reply With Quote  
     

  12. #56  
    Coldplayer crackerjack's Avatar
    Join Date
    Mar 2005
    Location
    swallowed in the sea
    Posts
    760
    Chat posts
    0
    yeah kapone do til kingdom come when you get a chance
    Reply With Quote  
     

  13. #57  
    Coldplayer
    Join Date
    Jan 2005
    Posts
    993
    Chat posts
    0
    1'36 pleaase
    Reply With Quote  
     

  14. #58  
    Coldplayer Kapone's Avatar
    Join Date
    Mar 2005
    Posts
    1,709
    Chat posts
    0
    TILL' KINGDOM COME

    Tuning: CACGBE

    Verse:
    0---0---0
    1---3---5
    0---0---0
    0---0---0
    3---5---7
    0---x---x

    I've never felt like...
    0----0----0----0----0-----0----0
    8----5----6----3----5-----0----1
    0----0----0----0----0-----0----0
    0----0----0----0----0-----0----0
    10---7---8----5-----7----2----3
    x----x----x----x----x-----x----0

    And the wheels...
    0----0---0
    10---6---1
    0----0---0
    0----0---0
    12---8---3
    x----x---0
    and then..."I don't know which way...
    0---0----0
    6---8----1
    0---0----0
    0---0----0
    8---10---3
    x---x----x

    For you I'd wait
    0---0---0
    6---8---1
    0---0---0
    0---0---0
    8--10---3
    x---x---x

    So say...
    0---0---0
    6---8---10
    0---0---0
    0---0---0
    8--10---12
    x---x---x

    Just say you'll wait. You'll wait for me
    0----0----0
    8----6----1
    0----0----0
    0----0----0
    10--8-----3
    x----x----0

    In the recording, at the chorus, Chris starts using some really annoying chords. He adds a bass note. For example:
    0
    6
    0
    0
    8
    5

    Apply that shape to all the chords in the chorus if you can manage it
    www.lemonculture.tk

    I\'m a member of the \'Ask someone esle to search group\'
    Reply With Quote  
     

  15. #59  
    Coldplayer
    Join Date
    Jun 2005
    Location
    Pskov
    Posts
    16
    Chat posts
    0
    tuning in "til' kingdom come"

    i'm sure: CACGBE
    Reply With Quote  
     

  16. #60  
    Coldplayer Kapone's Avatar
    Join Date
    Mar 2005
    Posts
    1,709
    Chat posts
    0
    pardon me
    www.lemonculture.tk

    I\'m a member of the \'Ask someone esle to search group\'
    Reply With Quote  
     

  •   
Page 4 of 52 FirstFirst 1234567814 ... LastLast
Tags for this Thread

View Tag Cloud

Posting Permissions
  • You may not post new threads
  • You may not post replies
  • You may not post attachments
  • You may not edit your posts
  •